  0
SECTION
  2
HEADER
  9
$ACADVER
  1
AC1015
  9
$ACADMAINTVER
 70
     6
  9
$DWGCODEPAGE
  3
ANSI_1254
  9
$INSBASE
 10
0.0
 20
0.0
 30
0.0
  9
$EXTMIN
 10
0.0
 20
0.0
 30
0.0
  9
$EXTMAX
 10
279.4
 20
215.9
 30
0.0
  9
$LIMMIN
 10
0.0
 20
0.0
  9
$LIMMAX
 10
279.4
 20
215.9
  9
$ORTHOMODE
 70
     0
  9
$REGENMODE
 70
     1
  9
$FILLMODE
 70
     1
  9
$QTEXTMODE
 70
     0
  9
$MIRRTEXT
 70
     1
  9
$LTSCALE
 40
1.0
  9
$ATTMODE
 70
     1
  9
$TEXTSIZE
 40
3.5
  9
$TRACEWID
 40
1.0
  9
$TEXTSTYLE
  7
Standard
  9
$CLAYER
  8
0
  9
$CELTYPE
  6
ByLayer
  9
$CECOLOR
 62
   256
  9
$CELTSCALE
 40
1.0
  9
$DISPSILH
 70
     0
  9
$DIMSCALE
 40
1.0
  9
$DIMASZ
 40
3.5
  9
$DIMEXO
 40
1.0
  9
$DIMDLI
 40
3.75
  9
$DIMRND
 40
0.0
  9
$DIMDLE
 40
0.0
  9
$DIMEXE
 40
1.0
  9
$DIMTP
 40
0.0
  9
$DIMTM
 40
0.0
  9
$DIMTXT
 40
3.5
  9
$DIMCEN
 40
2.5
  9
$DIMTSZ
 40
0.0
  9
$DIMTOL
 70
     0
  9
$DIMLIM
 70
     0
  9
$DIMTIH
 70
     1
  9
$DIMTOH
 70
     1
  9
$DIMSE1
 70
     0
  9
$DIMSE2
 70
     0
  9
$DIMTAD
 70
     1
  9
$DIMZIN
 70
     0
  9
$DIMBLK
  1

  9
$DIMASO
 70
     1
  9
$DIMSHO
 70
     1
  9
$DIMPOST
  1

  9
$DIMAPOST
  1

  9
$DIMALT
 70
     0
  9
$DIMALTD
 70
     3
  9
$DIMALTF
 40
0.0393700787
  9
$DIMLFAC
 40
1.0
  9
$DIMTOFL
 70
     1
  9
$DIMTVP
 40
0.0
  9
$DIMTIX
 70
     0
  9
$DIMSOXD
 70
     0
  9
$DIMSAH
 70
     0
  9
$DIMBLK1
  1

  9
$DIMBLK2
  1

  9
$DIMSTYLE
  2
ISO-25
  9
$DIMCLRD
 70
     0
  9
$DIMCLRE
 70
     0
  9
$DIMCLRT
 70
     0
  9
$DIMTFAC
 40
1.0
  9
$DIMGAP
 40
1.524
  9
$DIMJUST
 70
     0
  9
$DIMSD1
 70
     0
  9
$DIMSD2
 70
     0
  9
$DIMTOLJ
 70
     0
  9
$DIMTZIN
 70
     0
  9
$DIMALTZ
 70
     0
  9
$DIMALTTZ
 70
     0
  9
$DIMUPT
 70
     0
  9
$DIMDEC
 70
     2
  9
$DIMTDEC
 70
     2
  9
$DIMALTU
 70
     2
  9
$DIMALTTD
 70
     3
  9
$DIMTXSTY
  7
Standard
  9
$DIMAUNIT
 70
     0
  9
$DIMADEC
 70
     2
  9
$DIMALTRND
 40
0.0
  9
$DIMAZIN
 70
     0
  9
$DIMDSEP
 70
    44
  9
$DIMATFIT
 70
     3
  9
$DIMFRAC
 70
     0
  9
$DIMLDRBLK
  1

  9
$DIMLUNIT
 70
     2
  9
$DIMLWD
 70
    -2
  9
$DIMLWE
 70
    -2
  9
$DIMTMOVE
 70
     0
  9
$LUNITS
 70
     2
  9
$LUPREC
 70
     2
  9
$SKETCHINC
 40
1.0
  9
$FILLETRAD
 40
10.0
  9
$AUNITS
 70
     0
  9
$AUPREC
 70
     2
  9
$MENU
  1
.
  9
$ELEVATION
 40
0.0
  9
$PELEVATION
 40
0.0
  9
$THICKNESS
 40
0.0
  9
$LIMCHECK
 70
     0
  9
$CHAMFERA
 40
0.0
  9
$CHAMFERB
 40
0.0
  9
$CHAMFERC
 40
0.0
  9
$CHAMFERD
 40
0.0
  9
$SKPOLY
 70
     0
  9
$TDCREATE
 40
2458985.651252384
  9
$TDUCREATE
 40
2458985.526252384
  9
$TDUPDATE
 40
2458985.651252732
  9
$TDUUPDATE
 40
2458985.526252732
  9
$TDINDWG
 40
0.0000000116
  9
$TDUSRTIMER
 40
0.0000000116
  9
$USRTIMER
 70
     1
  9
$ANGBASE
 50
0.0
  9
$ANGDIR
 70
     0
  9
$PDMODE
 70
     0
  9
$PDSIZE
 40
-1.0
  9
$PLINEWID
 40
0.0
  9
$SPLFRAME
 70
     0
  9
$SPLINETYPE
 70
     6
  9
$SPLINESEGS
 70
     8
  9
$HANDSEED
  5
BF
  9
$SURFTAB1
 70
     6
  9
$SURFTAB2
 70
     6
  9
$SURFTYPE
 70
     6
  9
$SURFU
 70
     6
  9
$SURFV
 70
     6
  9
$UCSBASE
  2

  9
$UCSNAME
  2

  9
$UCSORG
 10
0.0
 20
0.0
 30
0.0
  9
$UCSXDIR
 10
1.0
 20
0.0
 30
0.0
  9
$UCSYDIR
 10
0.0
 20
1.0
 30
0.0
  9
$UCSORTHOREF
  2

  9
$UCSORTHOVIEW
 70
     0
  9
$UCSORGTOP
 10
0.0
 20
0.0
 30
0.0
  9
$UCSORGBOTTOM
 10
0.0
 20
0.0
 30
0.0
  9
$UCSORGLEFT
 10
0.0
 20
0.0
 30
0.0
  9
$UCSORGRIGHT
 10
0.0
 20
0.0
 30
0.0
  9
$UCSORGFRONT
 10
0.0
 20
0.0
 30
0.0
  9
$UCSORGBACK
 10
0.0
 20
0.0
 30
0.0
  9
$PUCSBASE
  2

  9
$PUCSNAME
  2

  9
$PUCSORG
 10
0.0
 20
0.0
 30
0.0
  9
$PUCSXDIR
 10
1.0
 20
0.0
 30
0.0
  9
$PUCSYDIR
 10
0.0
 20
1.0
 30
0.0
  9
$PUCSORTHOREF
  2

  9
$PUCSORTHOVIEW
 70
     0
  9
$PUCSORGTOP
 10
0.0
 20
0.0
 30
0.0
  9
$PUCSORGBOTTOM
 10
0.0
 20
0.0
 30
0.0
  9
$PUCSORGLEFT
 10
0.0
 20
0.0
 30
0.0
  9
$PUCSORGRIGHT
 10
0.0
 20
0.0
 30
0.0
  9
$PUCSORGFRONT
 10
0.0
 20
0.0
 30
0.0
  9
$PUCSORGBACK
 10
0.0
 20
0.0
 30
0.0
  9
$USERI1
 70
     0
  9
$USERI2
 70
     0
  9
$USERI3
 70
     0
  9
$USERI4
 70
     0
  9
$USERI5
 70
     0
  9
$USERR1
 40
0.0
  9
$USERR2
 40
0.0
  9
$USERR3
 40
0.0
  9
$USERR4
 40
0.0
  9
$USERR5
 40
0.0
  9
$WORLDVIEW
 70
     1
  9
$SHADEDGE
 70
     3
  9
$SHADEDIF
 70
    70
  9
$TILEMODE
 70
     1
  9
$MAXACTVP
 70
    64
  9
$PINSBASE
 10
0.0
 20
0.0
 30
0.0
  9
$PLIMCHECK
 70
     0
  9
$PEXTMIN
 10
1.0000000000E+20
 20
1.0000000000E+20
 30
1.0000000000E+20
  9
$PEXTMAX
 10
-1.0000000000E+20
 20
-1.0000000000E+20
 30
-1.0000000000E+20
  9
$PLIMMIN
 10
0.0
 20
0.0
  9
$PLIMMAX
 10
420.0
 20
297.0
  9
$UNITMODE
 70
     0
  9
$VISRETAIN
 70
     1
  9
$PLINEGEN
 70
     0
  9
$PSLTSCALE
 70
     1
  9
$TREEDEPTH
 70
  3020
  9
$CMLSTYLE
  2
Standard
  9
$CMLJUST
 70
     0
  9
$CMLSCALE
 40
20.0
  9
$PROXYGRAPHICS
 70
     1
  9
$MEASUREMENT
 70
     1
  9
$CELWEIGHT
370
    -1
  9
$ENDCAPS
280
     0
  9
$JOINSTYLE
280
     0
  9
$LWDISPLAY
290
     1
  9
$INSUNITS
 70
     4
  9
$HYPERLINKBASE
  1

  9
$STYLESHEET
  1

  9
$XEDIT
290
     1
  9
$CEPSNTYPE
380
     0
  9
$PSTYLEMODE
290
     1
  9
$FINGERPRINTGUID
  2
{5a5f2f5c-6fd0-4ebc-a32d-035bf2c1d1be}
  9
$VERSIONGUID
  2
{FAEB1C32-E019-11D5-929B-00C0DF256EC4}
  9
$EXTNAMES
290
     1
  9
$PSVPSCALE
 40
0.0
  9
$OLESTARTUP
290
     0
  0
ENDSEC
  0
SECTION
  2
CLASSES
  0
CLASS
  1
ACDBDICTIONARYWDFLT
  2
AcDbDictionaryWithDefault
  3
ObjectDBX Classes
 90
        0
280
     0
281
     0
  0
CLASS
  1
VISUALSTYLE
  2
AcDbVisualStyle
  3
ObjectDBX Classes
 90
     4095
280
     0
281
     0
  0
CLASS
  1
MATERIAL
  2
AcDbMaterial
  3
ObjectDBX Classes
 90
     1153
280
     0
281
     0
  0
CLASS
  1
SCALE
  2
AcDbScale
  3
ObjectDBX Classes
 90
     1153
280
     0
281
     0
  0
CLASS
  1
TABLESTYLE
  2
AcDbTableStyle
  3
ObjectDBX Classes
 90
     4095
280
     0
281
     0
  0
CLASS
  1
MLEADERSTYLE
  2
AcDbMLeaderStyle
  3
ACDB_MLEADERSTYLE_CLASS
 90
     4095
280
     0
281
     0
  0
CLASS
  1
SUN
  2
AcDbSun
  3
SCENEOE
 90
     1153
280
     0
281
     0
  0
CLASS
  1
ACDBPLACEHOLDER
  2
AcDbPlaceHolder
  3
ObjectDBX Classes
 90
        0
280
     0
281
     0
  0
CLASS
  1
LAYOUT
  2
AcDbLayout
  3
ObjectDBX Classes
 90
        0
280
     0
281
     0
  0
ENDSEC
  0
SECTION
  2
TABLES
  0
TABLE
  2
VPORT
  5
8
330
0
100
AcDbSymbolTable
 70
     1
  0
VPORT
  5
29
330
8
100
AcDbSymbolTableRecord
100
AcDbViewportTableRecord
  2
*Active
 70
     0
 10
0.0
 20
0.0
 11
1.0
 21
1.0
 12
139.7
 22
107.95
 13
0.0
 23
0.0
 14
10.0
 24
10.0
 15
10.0
 25
10.0
 16
0.0
 26
0.0
 36
1.0
 17
0.0
 27
0.0
 37
0.0
 40
215.9
 41
1.2941176471
 42
50.0
 43
0.0
 44
0.0
 50
0.0
 51
0.0
 71
     0
 72
  2000
 73
     1
 74
     3
 75
     0
 76
     0
 77
     0
 78
     0
281
     0
 65
     1
110
0.0
120
0.0
130
0.0
111
1.0
121
0.0
131
0.0
112
0.0
122
1.0
132
0.0
 79
     0
146
0.0
  0
ENDTAB
  0
TABLE
  2
LTYPE
  5
5
330
0
100
AcDbSymbolTable
 70
     6
  0
LTYPE
  5
14
330
5
100
AcDbSymbolTableRecord
100
AcDbLinetypeTableRecord
  2
ByBlock
 70
     0
  3

 72
    65
 73
     0
 40
0.0
  0
LTYPE
  5
15
330
5
100
AcDbSymbolTableRecord
100
AcDbLinetypeTableRecord
  2
ByLayer
 70
     0
  3

 72
    65
 73
     0
 40
0.0
  0
LTYPE
  5
16
330
5
100
AcDbSymbolTableRecord
100
AcDbLinetypeTableRecord
  2
Continuous
 70
     0
  3
Solid line
 72
    65
 73
     0
 40
0.0
  0
LTYPE
  5
6E
330
5
100
AcDbSymbolTableRecord
100
AcDbLinetypeTableRecord
  2
HIDDEN
 70
     0
  3
Hidden __ __ __ __ __ __ __ __ __ __ __ __ __ __
 72
    65
 73
     2
 40
1.905
 49
1.27
 74
     0
 49
-0.635
 74
     0
  0
LTYPE
  5
6F
330
5
100
AcDbSymbolTableRecord
100
AcDbLinetypeTableRecord
  2
PHANTOM
 70
     0
  3
Phantom ______  __  __  ______  __  __  ______
 72
    65
 73
     6
 40
12.7
 49
6.35
 74
     0
 49
-1.27
 74
     0
 49
1.27
 74
     0
 49
-1.27
 74
     0
 49
1.27
 74
     0
 49
-1.27
 74
     0
  0
LTYPE
  5
70
330
5
100
AcDbSymbolTableRecord
100
AcDbLinetypeTableRecord
  2
CENTER
 70
     0
  3
Center ____ _ ____ _ ____ _ ____ _ ____ _ ____
 72
    65
 73
     4
 40
10.16
 49
6.35
 74
     0
 49
-1.27
 74
     0
 49
1.27
 74
     0
 49
-1.27
 74
     0
  0
LTYPE
  5
71
330
5
100
AcDbSymbolTableRecord
100
AcDbLinetypeTableRecord
  2
CENTERX2
 70
     0
  3
Center (2x) ________  __  ________  __  _____
 72
    65
 73
     4
 40
20.32
 49
12.7
 74
     0
 49
-2.54
 74
     0
 49
2.54
 74
     0
 49
-2.54
 74
     0
  0
LTYPE
  5
72
330
5
100
AcDbSymbolTableRecord
100
AcDbLinetypeTableRecord
  2
DOT2
 70
     0
  3
Dot (.5x) ........................................
 72
    65
 73
     2
 40
0.635
 49
0.0
 74
     0
 49
-0.635
 74
     0
  0
ENDTAB
  0
TABLE
  2
LAYER
  5
2
330
0
100
AcDbSymbolTable
 70
    17
  0
LAYER
  5
10
330
2
100
AcDbSymbolTableRecord
100
AcDbLayerTableRecord
  2
0
 70
     0
 62
     7
  6
Continuous
370
    -3
390
F
  0
LAYER
  5
73
330
2
100
AcDbSymbolTableRecord
100
AcDbLayerTableRecord
  2
FORMAT
 70
     0
 62
     7
  6
Continuous
370
    -3
390
F
  0
LAYER
  5
74
330
2
100
AcDbSymbolTableRecord
100
AcDbLayerTableRecord
  2
YARDIMCI_GEOMETRI
 70
     0
 62
    -6
  6
Continuous
290
     0
370
    -3
390
F
  0
LAYER
  5
75
330
2
100
AcDbSymbolTableRecord
100
AcDbLayerTableRecord
  2
SAYFA_CERCEVESI
 70
     0
 62
     7
  6
Continuous
370
    25
390
F
  0
LAYER
  5
76
330
2
100
AcDbSymbolTableRecord
100
AcDbLayerTableRecord
  2
ANTET
 70
     0
 62
     7
  6
Continuous
370
    -3
390
F
  0
LAYER
  5
77
330
2
100
AcDbSymbolTableRecord
100
AcDbLayerTableRecord
  2
OLCU
 70
     0
 62
   150
  6
Continuous
370
    -3
390
F
  0
LAYER
  5
78
330
2
100
AcDbSymbolTableRecord
100
AcDbLayerTableRecord
  2
METIN
 70
     0
 62
    96
  6
Continuous
370
    -3
390
F
  0
LAYER
  5
79
330
2
100
AcDbSymbolTableRecord
100
AcDbLayerTableRecord
  2
BALON
 70
     0
 62
     5
  6
Continuous
370
    -3
390
F
  0
LAYER
  5
7A
330
2
100
AcDbSymbolTableRecord
100
AcDbLayerTableRecord
  2
VURGU
 70
     0
 62
     7
  6
Continuous
370
    -3
390
F
  0
LAYER
  5
7B
330
2
100
AcDbSymbolTableRecord
100
AcDbLayerTableRecord
  2
SILIK
 70
     0
 62
     7
  6
Continuous
370
    -3
390
F
  0
LAYER
  5
7C
330
2
100
AcDbSymbolTableRecord
100
AcDbLayerTableRecord
  2
MODEL
 70
     0
 62
     7
  6
Continuous
370
    -3
390
F
  0
LAYER
  5
7D
330
2
100
AcDbSymbolTableRecord
100
AcDbLayerTableRecord
  2
DETAYLANDıRMA
 70
     0
 62
   190
  6
Continuous
370
    -3
390
F
  0
LAYER
  5
7E
330
2
100
AcDbSymbolTableRecord
100
AcDbLayerTableRecord
  2
TOLERANS
 70
     0
 62
   230
  6
Continuous
370
    -3
390
F
  0
LAYER
  5
7F
330
2
100
AcDbSymbolTableRecord
100
AcDbLayerTableRecord
  2
MERKEZ_CIZGILERI
 70
     0
 62
    30
  6
Continuous
370
    -3
390
F
  0
LAYER
  5
80
330
2
100
AcDbSymbolTableRecord
100
AcDbLayerTableRecord
  2
KESIT-DETAY_CIZGILERI
 70
     0
 62
     7
  6
Continuous
370
    -3
390
F
  0
LAYER
  5
81
330
2
100
AcDbSymbolTableRecord
100
AcDbLayerTableRecord
  2
\U+041E\U+0421\U+0415\U+0412\U+042B\U+0415
 70
     0
 62
     7
  6
Continuous
370
    -3
390
F
  0
LAYER
  5
82
330
2
100
AcDbSymbolTableRecord
100
AcDbLayerTableRecord
  2
\U+0412\U+041E\U+0414\U+042F\U+041D\U+042B\U+0415_\U+0417\U+041D\U+0410\U+041A\U+0418
 70
     0
 62
    11
  6
Continuous
370
    -3
390
F
  0
ENDTAB
  0
TABLE
  2
STYLE
  5
3
330
0
100
AcDbSymbolTable
 70
     1
  0
STYLE
  5
11
330
3
100
AcDbSymbolTableRecord
100
AcDbTextStyleTableRecord
  2
Standard
 70
     0
 40
0.0
 41
1.0
 50
0.0
 71
     0
 42
3.5
  3
txt
  4

  0
ENDTAB
  0
TABLE
  2
VIEW
  5
6
330
0
100
AcDbSymbolTable
 70
     0
  0
ENDTAB
  0
TABLE
  2
UCS
  5
7
330
0
100
AcDbSymbolTable
 70
     0
  0
ENDTAB
  0
TABLE
  2
APPID
  5
9
330
0
100
AcDbSymbolTable
 70
     1
  0
APPID
  5
12
330
9
100
AcDbSymbolTableRecord
100
AcDbRegAppTableRecord
  2
ACAD
 70
     0
  0
ENDTAB
  0
TABLE
  2
DIMSTYLE
  5
A
330
0
100
AcDbSymbolTable
 70
     1
100
AcDbDimStyleTable
  0
DIMSTYLE
105
27
330
A
100
AcDbSymbolTableRecord
100
AcDbDimStyleTableRecord
  2
ISO-25
 70
     0
 41
2.5
 42
0.625
 43
3.75
 44
1.25
 73
     0
 74
     0
 77
     1
 78
     8
140
2.5
141
2.5
143
0.0393700787
147
0.625
171
     3
172
     1
178
     0
271
     2
272
     2
274
     3
278
    44
283
     0
284
     8
340
11
  0
ENDTAB
  0
TABLE
  2
BLOCK_RECORD
  5
1
330
0
100
AcDbSymbolTable
 70
     1
  0
BLOCK_RECORD
  5
1F
330
1
100
AcDbSymbolTableRecord
100
AcDbBlockTableRecord
  2
*Model_Space
340
22
  0
BLOCK_RECORD
  5
1B
330
1
100
AcDbSymbolTableRecord
100
AcDbBlockTableRecord
  2
*Paper_Space
340
1E
  0
BLOCK_RECORD
  5
23
330
1
100
AcDbSymbolTableRecord
100
AcDbBlockTableRecord
  2
*Paper_Space0
340
26
  0
ENDTAB
  0
ENDSEC
  0
SECTION
  2
BLOCKS
  0
BLOCK
  5
20
330
1F
100
AcDbEntity
  8
0
100
AcDbBlockBegin
  2
*Model_Space
 70
     0
 10
0.0
 20
0.0
 30
0.0
  3
*Model_Space
  1

  0
ENDBLK
  5
21
330
1F
100
AcDbEntity
  8
0
100
AcDbBlockEnd
  0
BLOCK
  5
1C
330
1B
100
AcDbEntity
 67
     1
  8
0
100
AcDbBlockBegin
  2
*Paper_Space
 70
     0
 10
0.0
 20
0.0
 30
0.0
  3
*Paper_Space
  1

  0
ENDBLK
  5
1D
330
1B
100
AcDbEntity
 67
     1
  8
0
100
AcDbBlockEnd
  0
BLOCK
  5
24
330
23
100
AcDbEntity
  8
0
100
AcDbBlockBegin
  2
*Paper_Space0
 70
     0
 10
0.0
 20
0.0
 30
0.0
  3
*Paper_Space0
  1

  0
ENDBLK
  5
25
330
23
100
AcDbEntity
  8
0
100
AcDbBlockEnd
  0
ENDSEC
  0
SECTION
  2
ENTITIES
  0
CIRCLE
  5
83
330
1F
100
AcDbEntity
  8
0
  6
Continuous
 62
     7
370
    25
100
AcDbCircle
 10
135.9944086538
 20
118.27271875
 30
0.0
 40
100.0
  0
CIRCLE
  5
84
330
1F
100
AcDbEntity
  8
0
  6
Continuous
 62
     7
370
    25
100
AcDbCircle
 10
135.9944086538
 20
118.27271875
 30
0.0
 40
88.09999999999998
  0
CIRCLE
  5
85
330
1F
100
AcDbEntity
  8
0
  6
Continuous
 62
     7
370
    25
100
AcDbCircle
 10
135.9944086538
 20
118.27271875
 30
0.0
 40
115.0
  0
CIRCLE
  5
86
330
1F
100
AcDbEntity
  8
0
  6
Continuous
 62
     7
370
    25
100
AcDbCircle
 10
135.9944086538
 20
118.27271875
 30
0.0
 40
134.0
  0
LINE
  5
87
330
1F
100
AcDbEntity
  8
0
  6
Continuous
 62
     7
370
    25
100
AcDbLine
 10
269.9944086538
 20
297.4466121389
 30
0.0
 11
269.9944086538
 21
321.4466121389
 31
0.0
  0
LINE
  5
88
330
1F
100
AcDbEntity
  8
0
  6
Continuous
 62
     7
370
    25
100
AcDbLine
 10
1.9944086538
 20
321.4466121389
 30
0.0
 11
1.9944086538
 21
297.4466121389
 31
0.0
  0
LINE
  5
89
330
1F
100
AcDbEntity
  8
0
  6
Continuous
 62
     7
370
    25
100
AcDbLine
 10
250.9944086538
 20
321.4466121389
 30
0.0
 11
235.9944086538
 21
360.4466121389
 31
0.0
  0
LINE
  5
8A
330
1F
100
AcDbEntity
  8
0
  6
Continuous
 62
     7
370
    25
100
AcDbLine
 10
35.9944086538
 20
360.4466121389
 30
0.0
 11
20.9944086538
 21
321.4466121389
 31
0.0
  0
LINE
  5
8B
330
1F
100
AcDbEntity
  8
0
  6
Continuous
 62
     7
370
    25
100
AcDbLine
 10
235.9944086538
 20
360.4466121389
 30
0.0
 11
235.9944086538
 21
485.4466121389
 31
0.0
  0
LINE
  5
8C
330
1F
100
AcDbEntity
  8
0
  6
Continuous
 62
     7
370
    25
100
AcDbLine
 10
35.9944086538
 20
485.4466121389
 30
0.0
 11
35.9944086538
 21
360.4466121389
 31
0.0
  0
LINE
  5
8D
330
1F
100
AcDbEntity
  8
0
  6
Continuous
 62
     7
370
    25
100
AcDbLine
 10
269.9944086538
 20
297.4466121389
 30
0.0
 11
1.9944086538
 21
297.4466121389
 31
0.0
  0
LINE
  5
8E
330
1F
100
AcDbEntity
  8
0
  6
Continuous
 62
     7
370
    25
100
AcDbLine
 10
269.9944086538
 20
321.4466121389
 30
0.0
 11
1.9944086538
 21
321.4466121389
 31
0.0
  0
LINE
  5
8F
330
1F
100
AcDbEntity
  8
0
  6
Continuous
 62
     7
370
    25
100
AcDbLine
 10
235.9944086538
 20
360.4466121389
 30
0.0
 11
35.9944086538
 21
360.4466121389
 31
0.0
  0
LINE
  5
90
330
1F
100
AcDbEntity
  8
0
  6
Continuous
 62
     7
370
    25
100
AcDbLine
 10
235.9944086538
 20
485.4466121389
 30
0.0
 11
35.9944086538
 21
485.4466121389
 31
0.0
  0
LINE
  5
91
330
1F
100
AcDbEntity
  8
0
  6
Continuous
 62
     7
370
    25
100
AcDbLine
 10
-74.4139171616
 20
252.27271875
 30
0.0
 11
-98.4139171616
 21
252.27271875
 31
0.0
  0
LINE
  5
92
330
1F
100
AcDbEntity
  8
0
  6
Continuous
 62
     7
370
    25
100
AcDbLine
 10
-98.4139171616
 20
-15.72728125
 30
0.0
 11
-74.4139171616
 21
-15.72728125
 31
0.0
  0
LINE
  5
93
330
1F
100
AcDbEntity
  8
0
  6
Continuous
 62
     7
370
    25
100
AcDbLine
 10
-98.4139171616
 20
233.27271875
 30
0.0
 11
-137.4139171616
 21
218.27271875
 31
0.0
  0
LINE
  5
94
330
1F
100
AcDbEntity
  8
0
  6
Continuous
 62
     7
370
    25
100
AcDbLine
 10
-137.4139171616
 20
18.27271875
 30
0.0
 11
-98.4139171616
 21
3.27271875
 31
0.0
  0
LINE
  5
95
330
1F
100
AcDbEntity
  8
0
  6
Continuous
 62
     7
370
    25
100
AcDbLine
 10
-137.4139171616
 20
218.27271875
 30
0.0
 11
-262.4139171616
 21
218.27271875
 31
0.0
  0
LINE
  5
96
330
1F
100
AcDbEntity
  8
0
  6
Continuous
 62
     7
370
    25
100
AcDbLine
 10
-262.4139171616
 20
18.27271875
 30
0.0
 11
-137.4139171616
 21
18.27271875
 31
0.0
  0
LINE
  5
97
330
1F
100
AcDbEntity
  8
0
  6
Continuous
 62
     7
370
    25
100
AcDbLine
 10
-74.4139171616
 20
252.27271875
 30
0.0
 11
-74.4139171616
 21
-15.72728125
 31
0.0
  0
LINE
  5
98
330
1F
100
AcDbEntity
  8
0
  6
Continuous
 62
     7
370
    25
100
AcDbLine
 10
-98.4139171616
 20
252.27271875
 30
0.0
 11
-98.4139171616
 21
-15.72728125
 31
0.0
  0
LINE
  5
99
330
1F
100
AcDbEntity
  8
0
  6
Continuous
 62
     7
370
    25
100
AcDbLine
 10
-137.4139171616
 20
218.27271875
 30
0.0
 11
-137.4139171616
 21
18.27271875
 31
0.0
  0
LINE
  5
9A
330
1F
100
AcDbEntity
  8
0
  6
Continuous
 62
     7
370
    25
100
AcDbLine
 10
-262.4139171616
 20
218.27271875
 30
0.0
 11
-262.4139171616
 21
18.27271875
 31
0.0
  0
LINE
  5
9B
330
1F
100
AcDbEntity
  8
0
  6
Continuous
 62
     7
370
    25
100
AcDbLine
 10
1.9944086538
 20
-92.5515743335
 30
0.0
 11
1.9944086538
 21
-116.5515743335
 31
0.0
  0
LINE
  5
9C
330
1F
100
AcDbEntity
  8
0
  6
Continuous
 62
     7
370
    25
100
AcDbLine
 10
269.9944086538
 20
-116.5515743335
 30
0.0
 11
269.9944086538
 21
-92.5515743335
 31
0.0
  0
LINE
  5
9D
330
1F
100
AcDbEntity
  8
0
  6
Continuous
 62
     7
370
    25
100
AcDbLine
 10
20.9944086538
 20
-116.5515743335
 30
0.0
 11
35.9944086538
 21
-155.5515743335
 31
0.0
  0
LINE
  5
9E
330
1F
100
AcDbEntity
  8
0
  6
Continuous
 62
     7
370
    25
100
AcDbLine
 10
235.9944086538
 20
-155.5515743335
 30
0.0
 11
250.9944086538
 21
-116.5515743335
 31
0.0
  0
LINE
  5
9F
330
1F
100
AcDbEntity
  8
0
  6
Continuous
 62
     7
370
    25
100
AcDbLine
 10
35.9944086538
 20
-155.5515743335
 30
0.0
 11
35.9944086538
 21
-280.5515743335
 31
0.0
  0
LINE
  5
A0
330
1F
100
AcDbEntity
  8
0
  6
Continuous
 62
     7
370
    25
100
AcDbLine
 10
235.9944086538
 20
-280.5515743335
 30
0.0
 11
235.9944086538
 21
-155.5515743335
 31
0.0
  0
LINE
  5
A1
330
1F
100
AcDbEntity
  8
0
  6
Continuous
 62
     7
370
    25
100
AcDbLine
 10
1.9944086538
 20
-92.5515743335
 30
0.0
 11
269.9944086538
 21
-92.5515743335
 31
0.0
  0
LINE
  5
A2
330
1F
100
AcDbEntity
  8
0
  6
Continuous
 62
     7
370
    25
100
AcDbLine
 10
1.9944086538
 20
-116.5515743335
 30
0.0
 11
269.9944086538
 21
-116.5515743335
 31
0.0
  0
LINE
  5
A3
330
1F
100
AcDbEntity
  8
0
  6
Continuous
 62
     7
370
    25
100
AcDbLine
 10
35.9944086538
 20
-155.5515743335
 30
0.0
 11
235.9944086538
 21
-155.5515743335
 31
0.0
  0
LINE
  5
A4
330
1F
100
AcDbEntity
  8
0
  6
Continuous
 62
     7
370
    25
100
AcDbLine
 10
35.9944086538
 20
-280.5515743335
 30
0.0
 11
235.9944086538
 21
-280.5515743335
 31
0.0
  0
LINE
  5
A5
330
1F
100
AcDbEntity
  8
0
  6
Continuous
 62
     7
370
    25
100
AcDbLine
 10
346.1900584838
 20
-15.72728125
 30
0.0
 11
370.1900584838
 21
-15.72728125
 31
0.0
  0
LINE
  5
A6
330
1F
100
AcDbEntity
  8
0
  6
Continuous
 62
     7
370
    25
100
AcDbLine
 10
370.1900584838
 20
252.27271875
 30
0.0
 11
346.1900584838
 21
252.27271875
 31
0.0
  0
LINE
  5
A7
330
1F
100
AcDbEntity
  8
0
  6
Continuous
 62
     7
370
    25
100
AcDbLine
 10
370.1900584838
 20
3.27271875
 30
0.0
 11
409.1900584838
 21
18.27271875
 31
0.0
  0
LINE
  5
A8
330
1F
100
AcDbEntity
  8
0
  6
Continuous
 62
     7
370
    25
100
AcDbLine
 10
409.1900584838
 20
218.27271875
 30
0.0
 11
370.1900584838
 21
233.27271875
 31
0.0
  0
LINE
  5
A9
330
1F
100
AcDbEntity
  8
0
  6
Continuous
 62
     7
370
    25
100
AcDbLine
 10
409.1900584838
 20
18.27271875
 30
0.0
 11
534.1900584838
 21
18.27271875
 31
0.0
  0
LINE
  5
AA
330
1F
100
AcDbEntity
  8
0
  6
Continuous
 62
     7
370
    25
100
AcDbLine
 10
534.1900584838
 20
218.27271875
 30
0.0
 11
409.1900584838
 21
218.27271875
 31
0.0
  0
LINE
  5
AB
330
1F
100
AcDbEntity
  8
0
  6
Continuous
 62
     7
370
    25
100
AcDbLine
 10
346.1900584838
 20
118.27271875
 30
0.0
 11
346.1900584838
 21
252.27271875
 31
0.0
  0
LINE
  5
AC
330
1F
100
AcDbEntity
  8
0
  6
Continuous
 62
     7
370
    25
100
AcDbLine
 10
346.1900584838
 20
-15.72728125
 30
0.0
 11
346.1900584838
 21
118.27271875
 31
0.0
  0
LINE
  5
AD
330
1F
100
AcDbEntity
  8
0
  6
Continuous
 62
     7
370
    25
100
AcDbLine
 10
370.1900584838
 20
118.27271875
 30
0.0
 11
370.1900584838
 21
252.27271875
 31
0.0
  0
LINE
  5
AE
330
1F
100
AcDbEntity
  8
0
  6
Continuous
 62
     7
370
    25
100
AcDbLine
 10
370.1900584838
 20
-15.72728125
 30
0.0
 11
370.1900584838
 21
118.27271875
 31
0.0
  0
LINE
  5
AF
330
1F
100
AcDbEntity
  8
0
  6
Continuous
 62
     7
370
    25
100
AcDbLine
 10
409.1900584838
 20
118.27271875
 30
0.0
 11
409.1900584838
 21
218.27271875
 31
0.0
  0
LINE
  5
B0
330
1F
100
AcDbEntity
  8
0
  6
Continuous
 62
     7
370
    25
100
AcDbLine
 10
409.1900584838
 20
18.27271875
 30
0.0
 11
409.1900584838
 21
118.27271875
 31
0.0
  0
LINE
  5
B1
330
1F
100
AcDbEntity
  8
0
  6
Continuous
 62
     7
370
    25
100
AcDbLine
 10
534.1900584838
 20
118.27271875
 30
0.0
 11
534.1900584838
 21
218.27271875
 31
0.0
  0
LINE
  5
B2
330
1F
100
AcDbEntity
  8
0
  6
Continuous
 62
     7
370
    25
100
AcDbLine
 10
534.1900584838
 20
18.27271875
 30
0.0
 11
534.1900584838
 21
118.27271875
 31
0.0
  0
LINE
  5
B3
330
1F
100
AcDbEntity
  8
0
  6
Continuous
 62
     7
370
    25
100
AcDbLine
 10
507.5874306682
 20
-97.7408444404
 30
0.0
 11
419.1990830199
 21
-46.7153374515
 31
0.0
  0
LINE
  5
B4
330
1F
100
AcDbEntity
  8
0
  6
Continuous
 62
     7
370
    25
100
AcDbLine
 10
319.2072097563
 20
-219.9251099276
 30
0.0
 11
407.5955574046
 21
-270.9506169165
 31
0.0
  0
LINE
  5
B5
330
1F
100
AcDbEntity
  8
0
  6
Continuous
 62
     7
370
    25
100
AcDbLine
 10
524.8559972347
 20
-95.3956541779
 30
0.0
 11
500.6565793564
 21
-93.7397491438
 31
0.0
  0
LINE
  5
B6
330
1F
100
AcDbEntity
  8
0
  6
Continuous
 62
     7
370
    25
100
AcDbLine
 10
400.6647060928
 20
-266.9495216199
 30
0.0
 11
414.2003597008
 21
-287.0776096696
 31
0.0
  0
LINE
  5
B7
330
1F
100
AcDbEntity
  8
0
  6
Continuous
 62
     7
370
    25
100
AcDbLine
 10
569.1337763378
 20
-94.0120386419
 30
0.0
 11
552.1632135893
 21
-84.2151413
 31
0.0
  0
LINE
  5
B8
330
1F
100
AcDbEntity
  8
0
  6
Continuous
 62
     7
370
    25
100
AcDbLine
 10
418.1741034161
 20
-316.316236418
 30
0.0
 11
435.1446661645
 21
-326.1131337599
 31
0.0
  0
LWPOLYLINE
  5
B9
330
1F
100
AcDbEntity
  8
0
  6
Continuous
 62
     7
370
    25
100
AcDbPolyline
 90
      117
 70
   128
 43
0.0
 10
298.4924682694
 20
-174.1406292807
 10
298.5961715705
 20
-169.6600998021
 10
298.9069772942
 20
-165.0729792057
 10
299.4239737937
 20
-160.3927223064
 10
300.1456446292
 20
-155.6330571041
 10
301.0698730158
 20
-150.807944517
 10
302.1939480324
 20
-145.9315374316
 10
303.5145725734
 20
-141.0181391901
 10
305.0278730193
 20
-136.0821616361
 10
306.7294105993
 20
-131.1380828422
 10
308.6141944104
 20
-126.2004046434
 10
310.6766960571
 20
-121.2836101005
 10
312.9108658665
 20
-116.4021210193
 10
315.3101506337
 20
-111.5702556481
 10
317.8675128431
 20
-106.8021866806
 10
320.5754513107
 20
-102.1118996847
 10
323.4260231864
 20
-97.5131520802
 10
326.4108672518
 20
-93.0194327863
 10
329.5212284449
 20
-88.6439226557
 10
332.7479835404
 20
-84.3994558138
 10
336.0816679097
 20
-80.2984820129
 10
339.5125032821
 20
-76.353030116
 10
343.0304264264
 20
-72.5746728131
 10
346.6251186678
 20
-68.9744926772
 10
350.2860361547
 20
-65.563049657
 10
354.0024407853
 20
-62.3503501027
 10
357.7634317044
 20
-59.3458174155
 10
361.5579772778
 20
-56.5582644076
 10
365.3749474494
 20
-53.9958674522
 10
369.2031463881
 20
-51.666142501
 10
373.0313453268
 20
-49.5759230387
 10
376.8483154984
 20
-47.7313400392
 10
380.6428610717
 20
-46.1378039823
 10
384.4038519909
 20
-44.7999889836
 10
388.1202566214
 20
-43.7218190852
 10
391.7811741083
 20
-42.9064567451
 10
395.3758663497
 20
-42.3562935616
 10
398.893789494
 20
-42.072943258
 10
402.3246248665
 20
-42.0572369496
 10
405.6583092358
 20
-42.3092207057
 10
408.8850643313
 20
-42.8281554146
 10
411.9954255244
 20
-43.6125189512
 10
414.9802695897
 20
-44.6600106424
 10
417.8308414654
 20
-45.9675580143
 10
420.538779933
 20
-47.5313258053
 10
423.0961421425
 20
-49.3467272151
 10
425.4954269097
 20
-51.4084373585
 10
427.7295967191
 20
-53.7104088844
 10
429.7920983657
 20
-56.2458897137
 10
431.6768821769
 20
-59.0074428443
 10
433.3784197568
 20
-61.986968165
 10
434.8917202028
 20
-65.1757262148
 10
436.2123447437
 20
-68.5643638168
 10
437.3364197603
 20
-72.1429415131
 10
438.260648147
 20
-75.9009627187
 10
438.9823189825
 20
-79.8274045099
 10
439.499315482
 20
-83.9107499565
 10
439.8101212056
 20
-88.1390219027
 10
439.9138245067
 20
-92.4998180984
 10
439.8101212056
 20
-96.9803475769
 10
439.499315482
 20
-101.5674681734
 10
438.9823189825
 20
-106.2477250727
 10
438.260648147
 20
-111.0073902749
 10
437.3364197603
 20
-115.8325028621
 10
436.2123447437
 20
-120.7089099475
 10
434.8917202028
 20
-125.622308189
 10
433.3784197568
 20
-130.558285743
 10
431.6768821769
 20
-135.5023645369
 10
429.7920983657
 20
-140.4400427357
 10
427.7295967191
 20
-145.3568372785
 10
425.4954269097
 20
-150.2383263598
 10
423.0961421425
 20
-155.070191731
 10
420.538779933
 20
-159.8382606985
 10
417.8308414654
 20
-164.5285476944
 10
414.9802695897
 20
-169.1272952989
 10
411.9954255244
 20
-173.6210145928
 10
408.8850643313
 20
-177.9965247233
 10
405.6583092358
 20
-182.2409915653
 10
402.3246248665
 20
-186.3419653661
 10
398.893789494
 20
-190.2874172631
 10
395.3758663497
 20
-194.065774566
 10
391.7811741083
 20
-197.6659547019
 10
388.1202566214
 20
-201.0773977221
 10
384.4038519909
 20
-204.2900972764
 10
380.6428610717
 20
-207.2946299636
 10
376.8483154984
 20
-210.0821829715
 10
373.0313453268
 20
-212.6445799269
 10
369.2031463881
 20
-214.9743048781
 10
365.3749474494
 20
-217.0645243404
 10
361.5579772778
 20
-218.9091073398
 10
357.7634317044
 20
-220.5026433968
 10
354.0024407853
 20
-221.8404583954
 10
350.2860361547
 20
-222.9186282938
 10
346.6251186678
 20
-223.7339906339
 10
343.0304264264
 20
-224.2841538175
 10
339.5125032821
 20
-224.5675041211
 10
336.0816679097
 20
-224.5832104295
 10
332.7479835404
 20
-224.3312266734
 10
329.5212284449
 20
-223.8122919645
 10
326.4108672518
 20
-223.0279284278
 10
323.4260231864
 20
-221.9804367367
 10
320.5754513107
 20
-220.6728893648
 10
317.8675128431
 20
-219.1091215737
 10
315.3101506337
 20
-217.293720164
 10
312.9108658665
 20
-215.2320100206
 10
310.6766960571
 20
-212.9300384947
 10
308.6141944104
 20
-210.3945576654
 10
306.7294105993
 20
-207.6330045348
 10
305.0278730193
 20
-204.6534792141
 10
303.5145725734
 20
-201.4647211643
 10
302.1939480324
 20
-198.0760835623
 10
301.0698730158
 20
-194.497505866
 10
300.1456446292
 20
-190.7394846604
 10
299.4239737937
 20
-186.8130428691
 10
298.9069772942
 20
-182.7296974225
 10
298.5961715705
 20
-178.5014254763
 10
298.4924682694
 20
-174.1406292807
  0
LWPOLYLINE
  5
BA
330
1F
100
AcDbEntity
  8
0
  6
Continuous
 62
     7
370
    25
100
AcDbPolyline
 90
      110
 70
   128
 43
0.0
 10
306.9070389655
 20
-169.2830010153
 10
307.0105096675
 20
-165.0788212248
 10
307.3205780543
 20
-160.7691425671
 10
307.8362141097
 20
-156.3682813613
 10
308.5557049428
 20
-151.8908568258
 10
309.4766604773
 20
-147.3517425146
 10
310.5960213916
 20
-142.7660169089
 10
311.9100692812
 20
-138.148913328
 10
313.4144390112
 20
-133.5157693258
 10
315.1041332167
 20
-128.8819757407
 10
316.9735389034
 20
-124.2629255689
 10
319.0164460937
 20
-119.6739628306
 10
321.2260684553
 20
-115.1303315985
 10
323.595065845
 20
-110.6471253587
 10
326.1155686916
 20
-106.2392368714
 10
328.7792041381
 20
-101.9213086989
 10
331.5771238556
 20
-97.7076845643
 10
334.500033436
 20
-93.6123617033
 10
337.5382232677
 20
-89.6489443665
 10
340.6816007896
 20
-85.8305986279
 10
343.9197240177
 20
-82.1700086478
 10
347.2418362322
 20
-78.6793345382
 10
350.6369017105
 20
-75.3701719673
 10
354.0936423865
 20
-72.2535136404
 10
357.6005753153
 20
-69.3397127831
 10
361.1460508184
 20
-66.6384487488
 10
364.7182911827
 20
-64.1586948649
 10
368.305429785
 20
-61.9086886244
 10
371.8955505115
 20
-59.895904322
 10
375.4767273423
 20
-58.1270282244
 10
379.0370639681
 20
-56.6079363604
 10
382.5647333086
 20
-55.3436750002
 10
386.0480168011
 20
-54.338443893
 10
389.4753433282
 20
-53.5955823153
 10
392.8353276556
 20
-53.1175579788
 10
396.1168082535
 20
-52.9059588321
 10
399.3088843733
 20
-52.9614877864
 10
402.4009522591
 20
-53.2839603799
 10
405.3827403723
 20
-53.8723053913
 10
408.2443435128
 20
-54.7245683975
 10
410.9762557226
 20
-55.8379182665
 10
413.5694018642
 20
-57.2086565621
 10
416.0151677668
 20
-58.8322298295
 10
418.3054288421
 20
-60.7032447215
 10
420.432577073
 20
-62.8154859149
 10
422.3895462872
 20
-65.1619367568
 10
424.1698356296
 20
-67.7348025735
 10
425.7675311582
 20
-70.5255365634
 10
427.177325489
 20
-73.5248681891
 10
428.394535427
 20
-76.7228339723
 10
429.4151175233
 20
-80.1088105924
 10
430.2356815067
 20
-83.6715501755
 10
430.8535015463
 20
-87.3992176591
 10
431.2665253059
 20
-91.2794301067
 10
431.4733807623
 20
-95.2992978426
 10
431.4733807623
 20
-99.4454672706
 10
431.2665253059
 20
-103.7041652328
 10
430.8535015463
 20
-108.0612447629
 10
430.2356815067
 20
-112.5022320807
 10
429.4151175233
 20
-117.0123746731
 10
428.394535427
 20
-121.5766902999
 10
427.177325489
 20
-126.1800167636
 10
425.7675311582
 20
-130.8070622767
 10
424.1698356296
 20
-135.4424562593
 10
422.3895462872
 20
-140.0708003986
 10
420.432577073
 20
-144.6767198011
 10
418.3054288421
 20
-149.2449140655
 10
416.0151677668
 20
-153.7602081099
 10
413.5694018642
 20
-158.2076025817
 10
410.9762557226
 20
-162.5723236837
 10
408.2443435128
 20
-166.8398722512
 10
405.3827403723
 20
-170.9960719171
 10
402.4009522591
 20
-175.0271162041
 10
399.3088843733
 20
-178.9196143885
 10
396.1168082535
 20
-182.6606359827
 10
392.8353276556
 20
-186.2377536892
 10
389.4753433282
 20
-189.6390846828
 10
386.0480168011
 20
-192.8533300839
 10
382.5647333086
 20
-195.8698124925
 10
379.0370639681
 20
-198.6785114575
 10
375.4767273423
 20
-201.2700967633
 10
371.8955505115
 20
-203.6359594243
 10
368.305429785
 20
-205.7682402825
 10
364.7182911827
 20
-207.6598561153
 10
361.1460508184
 20
-209.3045231653
 10
357.6005753153
 20
-210.6967780138
 10
354.0936423865
 20
-211.8319957303
 10
350.6369017105
 20
-212.7064052357
 10
347.2418362322
 20
-213.3171018295
 10
343.9197240177
 20
-213.6620568391
 10
340.6816007896
 20
-213.7401243586
 10
337.5382232677
 20
-213.5510450556
 10
334.500033436
 20
-213.0954470325
 10
331.5771238556
 20
-212.3748437401
 10
328.7792041381
 20
-211.3916289501
 10
326.1155686916
 20
-210.1490688031
 10
323.595065845
 20
-208.651290959
 10
321.2260684553
 20
-206.9032708852
 10
319.0164460937
 20
-204.9108153286
 10
316.9735389034
 20
-202.680543026
 10
315.1041332167
 20
-200.219862718
 10
313.4144390112
 20
-197.5369485369
 10
311.9100692812
 20
-194.6407128538
 10
310.5960213916
 20
-191.5407766725
 10
309.4766604773
 20
-188.2474376692
 10
308.5557049428
 20
-184.7716359848
 10
307.8362141097
 20
-181.1249178831
 10
307.3205780543
 20
-177.3193973948
 10
307.0105096675
 20
-173.3677160762
 10
306.9070389655
 20
-169.2830010153
  0
LWPOLYLINE
  5
BB
330
1F
100
AcDbEntity
  8
0
  6
Continuous
 62
     7
370
    25
100
AcDbPolyline
 90
       60
 70
   128
 43
0.0
 10
507.5874306682
 20
-97.7408444404
 10
508.9271275814
 20
-98.5568327943
 10
511.4844897908
 20
-100.372234204
 10
513.883774558
 20
-102.4339443474
 10
516.1179443674
 20
-104.7359158733
 10
518.180446014
 20
-107.2713967026
 10
520.0652298252
 20
-110.0329498332
 10
521.7667674052
 20
-113.0124751539
 10
523.2800678511
 20
-116.2012332037
 10
524.600692392
 20
-119.5898708057
 10
525.7247674087
 20
-123.168448502
 10
526.6489957953
 20
-126.9264697076
 10
527.3706666308
 20
-130.8529114989
 10
527.8876631303
 20
-134.9362569455
 10
528.1984688539
 20
-139.1645288917
 10
528.302172155
 20
-143.5253250873
 10
528.1984688539
 20
-148.0058545658
 10
527.8876631303
 20
-152.5929751623
 10
527.3706666308
 20
-157.2732320616
 10
526.6489957953
 20
-162.0328972639
 10
525.7247674087
 20
-166.858009851
 10
524.600692392
 20
-171.7344169364
 10
523.2800678511
 20
-176.6478151779
 10
521.7667674051
 20
-181.5837927319
 10
520.0652298252
 20
-186.5278715258
 10
518.180446014
 20
-191.4655497246
 10
516.1179443674
 20
-196.3823442675
 10
513.883774558
 20
-201.2638333487
 10
511.4844897908
 20
-206.0956987199
 10
508.9271275814
 20
-210.8637676874
 10
506.2191891138
 20
-215.5540546833
 10
503.368617238
 20
-220.1528022878
 10
500.3837731727
 20
-224.6465215817
 10
497.2734119796
 20
-229.0220317123
 10
494.0466568841
 20
-233.2664985542
 10
490.7129725148
 20
-237.3674723551
 10
487.2821371424
 20
-241.312924252
 10
483.7642139981
 20
-245.0912815549
 10
480.1695217566
 20
-248.6914616908
 10
476.5086042698
 20
-252.102904711
 10
472.7921996392
 20
-255.3156042653
 10
469.03120872
 20
-258.3201369525
 10
465.2366631467
 20
-261.1076899604
 10
461.4196929751
 20
-263.6700869158
 10
457.5914940364
 20
-265.999811867
 10
453.7632950977
 20
-268.0900313293
 10
449.9463249261
 20
-269.9346143288
 10
446.1517793528
 20
-271.5281503857
 10
442.3907884336
 20
-272.8659653844
 10
438.674383803
 20
-273.9441352828
 10
435.0134663162
 20
-274.7594976228
 10
431.4187740747
 20
-275.3096608064
 10
427.9008509304
 20
-275.59301111
 10
424.470015558
 20
-275.6087174184
 10
421.1363311887
 20
-275.3567336623
 10
417.9095760932
 20
-274.8377989534
 10
414.7992149001
 20
-274.0534354168
 10
411.8143708348
 20
-273.0059437256
 10
408.963798959
 20
-271.6983963537
 10
407.5955574046
 20
-270.9506169165
  0
LWPOLYLINE
  5
BC
330
1F
100
AcDbEntity
  8
0
  6
Continuous
 62
     7
370
    25
100
AcDbPolyline
 90
       75
 70
   128
 43
0.0
 10
524.8559972347
 20
-95.3956541779
 10
527.0014820301
 20
-95.5924799876
 10
530.4522688427
 20
-96.1292403148
 10
533.7886653256
 20
-96.9290583488
 10
537.0022434515
 20
-97.9899136798
 10
540.0848854434
 20
-99.3091264953
 10
543.0288042799
 20
-100.883364349
 10
545.8265633667
 20
-102.7086505797
 10
548.4710953213
 20
-104.7803743559
 10
550.9557198267
 20
-107.0933023235
 10
553.2741605057
 20
-109.6415918257
 10
555.4205607758
 20
-112.418805662
 10
557.3894986438
 20
-115.4179283494
 10
559.1760004017
 20
-118.6313838436
 10
560.775553191
 20
-122.0510546772
 10
562.1841164026
 20
-125.6683024648
 10
563.3981318834
 20
-129.4739897245
 10
564.4145329252
 20
-133.4585029602
 10
565.2307520106
 20
-137.6117769455
 10
565.8447272993
 20
-141.9233201499
 10
566.2549078366
 20
-146.382241241
 10
566.4602574707
 20
-150.9772765973
 10
566.4602574707
 20
-155.6968187606
 10
566.2549078366
 20
-160.5289457578
 10
565.8447272993
 20
-165.4614512168
 10
565.2307520106
 20
-170.4818752006
 10
564.4145329252
 20
-175.5775356826
 10
563.3981318834
 20
-180.7355605822
 10
562.1841164026
 20
-185.9429202807
 10
560.775553191
 20
-191.1864605358
 10
559.1760004017
 20
-196.4529357095
 10
557.3894986438
 20
-201.7290422286
 10
555.4205607758
 20
-207.0014521901
 10
553.2741605057
 20
-212.2568470289
 10
550.9557198267
 20
-217.4819511614
 10
548.4710953213
 20
-222.6635655211
 10
545.8265633667
 20
-227.7886009006
 10
543.0288042799
 20
-232.8441110156
 10
540.0848854434
 20
-237.8173252088
 10
537.0022434515
 20
-242.6956807095
 10
533.7886653256
 20
-247.4668543685
 10
530.4522688427
 20
-252.1187937868
 10
527.0014820301
 20
-256.6397477619
 10
523.4450218747
 20
-261.0182959716
 10
519.7918723034
 20
-265.2433778231
 10
516.0512614893
 20
-269.3043203931
 10
512.2326385397
 20
-273.190865388
 10
508.3456496277
 20
-276.8931950581
 10
504.4001136247
 20
-280.4019569971
 10
500.405997297
 20
-283.7082877679
 10
496.373390129
 20
-286.8038352921
 10
492.3124788366
 20
-289.6807799479
 10
488.2335216339
 20
-292.3318543235
 10
484.146822321
 20
-294.7503615748
 10
480.062704255
 20
-296.9301923428
 10
475.9914842726
 20
-298.8658401856
 10
471.9434466287
 20
-300.5524154889
 10
467.9288170178
 20
-301.9856578171
 10
463.9577367427
 20
-303.1619466756
 10
460.0402370969
 20
-304.0783106566
 10
456.1862140243
 20
-304.7324349454
 10
452.4054031218
 20
-305.122667167
 10
448.7073550459
 20
-305.2480215612
 10
445.1014113869
 20
-305.1081814717
 10
441.5966810715
 20
-304.7035001468
 10
438.2020173526
 20
-304.0349998467
 10
434.9259954454
 20
-303.1043692611
 10
431.7768908655
 20
-301.9139592436
 10
428.7626585244
 20
-300.4667768733
 10
425.8909126346
 20
-298.7664778584
 10
423.1689074755
 20
-296.8173573018
 10
420.6035190684
 20
-294.6243388512
 10
418.2012278069
 20
-292.1929622615
 10
415.9681020873
 20
-289.5293694011
 10
414.2003597008
 20
-287.0776096696
  0
LWPOLYLINE
  5
BD
330
1F
100
AcDbEntity
  8
0
  6
Continuous
 62
     7
370
    25
100
AcDbPolyline
 90
       70
 70
   128
 43
0.0
 10
569.1337763378
 20
-94.0120386419
 10
570.2983280579
 20
-94.7081054617
 10
573.2868379171
 20
-96.7270792632
 10
576.1212578815
 20
-98.9915125355
 10
578.7954492287
 20
-101.4965010203
 10
581.3036202557
 20
-104.2366194705
 10
583.6403388225
 20
-107.2059333997
 10
585.8005441171
 20
-110.3980119349
 10
587.7795576158
 20
-113.805941745
 10
589.5730932161
 20
-117.4223420129
 10
591.1772665192
 20
-121.2393804208
 10
592.588603243
 20
-125.2487901136
 10
593.8040467465
 20
-129.4418876026
 10
594.8209646495
 20
-133.8095915723
 10
595.6371545344
 20
-138.3424425487
 10
596.2508487157
 20
-143.0306233858
 10
596.6607180684
 20
-147.8639805278
 10
596.8658749068
 20
-152.8320459995
 10
596.8658749068
 20
-157.9240600774
 10
596.6607180684
 20
-163.1289945928
 10
596.2508487157
 20
-168.4355768166
 10
595.6371545344
 20
-173.8323138734
 10
594.8209646495
 20
-179.3075176323
 10
593.8040467465
 20
-184.8493300214
 10
592.588603243
 20
-190.4457487089
 10
591.1772665192
 20
-196.0846530982
 10
589.5730932161
 20
-201.753830578
 10
587.7795576158
 20
-207.4410029723
 10
585.8005441171
 20
-213.1338531322
 10
583.6403388225
 20
-218.8200516117
 10
581.3036202557
 20
-224.4872833713
 10
578.7954492287
 20
-230.1232744489
 10
576.1212578815
 20
-235.7158185427
 10
573.2868379171
 20
-241.2528034477
 10
570.2983280579
 20
-246.7222372875
 10
567.1622007509
 20
-252.1122744863
 10
563.8852481493
 20
-257.4112414238
 10
560.474567403
 20
-262.6076617175
 10
556.9375452868
 20
-267.6902810782
 10
553.2818422031
 20
-272.6480916842
 10
549.5153755906
 20
-277.4703560217
 10
545.6463027775
 20
-282.1466301399
 10
541.6830033138
 20
-286.6667862704
 10
537.6340608237
 20
-291.0210347615
 10
533.5082444149
 20
-295.1999452806
 10
529.3144896871
 20
-299.1944672382
 10
525.0618793792
 20
-302.995949389
 10
520.7596236982
 20
-306.5961585692
 10
516.4170403717
 20
-309.9872975276
 10
512.0435344684
 20
-313.1620218121
 10
507.6485780282
 20
-316.113455677
 10
503.2416895479
 20
-318.8352069737
 10
498.8324133668
 20
-321.3213809949
 10
494.4302989953
 20
-323.5665932415
 10
490.0448804328
 20
-325.5659810835
 10
485.6856555193
 20
-327.3152142921
 10
481.3620653654
 20
-328.8105044178
 10
477.0834739045
 20
-330.048612995
 10
472.8591476131
 20
-331.0268585564
 10
468.6982354411
 20
-331.7431224398
 10
464.6097489979
 20
-332.1958533771
 10
460.6025430346
 20
-332.3840708541
 10
456.6852962671
 20
-332.3073672334
 10
452.8664925795
 20
-331.9659086382
 10
449.1544026504
 20
-331.3604345916
 10
445.5570660398
 20
-330.4922564157
 10
442.0822737779
 20
-329.363254391
 10
438.7375514909
 20
-327.9758736845
 10
435.5301431025
 20
-326.3331190539
 10
435.1446661645
 20
-326.1131337599
  0
LWPOLYLINE
  5
BE
330
1F
100
AcDbEntity
  8
0
  6
Continuous
 62
     7
370
    25
100
AcDbPolyline
 90
      101
 70
   128
 43
0.0
 10
490.5627648084
 20
-87.9127140372
 10
490.6780152797
 20
-87.8538514452
 10
495.0729717199
 20
-85.7309766138
 10
499.4464776232
 20
-83.8561584649
 10
503.7890609497
 20
-82.2334574372
 10
508.0913166307
 20
-80.8663879396
 10
512.3439269386
 20
-79.7579107403
 10
516.5376816664
 20
-78.9104265541
 10
520.6634980752
 20
-78.325770843
 10
524.7124405653
 20
-78.0052098412
 10
528.675740029
 20
-77.9494378123
 10
532.5448128422
 20
-78.1585755461
 10
536.3112794546
 20
-78.6321700969
 10
539.9669825383
 20
-79.3691957644
 10
543.5040046545
 20
-80.368056315
 10
546.9146854009
 20
-81.6265884392
 10
550.1916380024
 20
-83.1420664368
 10
553.3277653094
 20
-84.9112081198
 10
556.3162751686
 20
-86.9301819213
 10
559.1506951331
 20
-89.1946151936
 10
561.8248864802
 20
-91.6996036785
 10
564.3330575072
 20
-94.4397221287
 10
566.669776074
 20
-97.4090360578
 10
568.8299813686
 20
-100.6011145931
 10
570.8089948673
 20
-104.0090444032
 10
572.6025304676
 20
-107.625444671
 10
574.2067037708
 20
-111.442483079
 10
575.6180404946
 20
-115.4518927717
 10
576.833483998
 20
-119.6449902607
 10
577.850401901
 20
-124.0126942305
 10
578.666591786
 20
-128.5455452068
 10
579.2802859673
 20
-133.2337260439
 10
579.69015532
 20
-138.0670831859
 10
579.8953121583
 20
-143.0351486577
 10
579.8953121583
 20
-148.1271627355
 10
579.69015532
 20
-153.332097251
 10
579.2802859673
 20
-158.6386794748
 10
578.666591786
 20
-164.0354165315
 10
577.850401901
 20
-169.5106202905
 10
576.833483998
 20
-175.0524326795
 10
575.6180404946
 20
-180.648851367
 10
574.2067037708
 20
-186.2877557563
 10
572.6025304676
 20
-191.9569332361
 10
570.8089948673
 20
-197.6441056304
 10
568.8299813686
 20
-203.3369557903
 10
566.669776074
 20
-209.0231542699
 10
564.3330575072
 20
-214.6903860294
 10
561.8248864802
 20
-220.326377107
 10
559.1506951331
 20
-225.9189212008
 10
556.3162751686
 20
-231.4559061058
 10
553.3277653094
 20
-236.9253399456
 10
550.1916380024
 20
-242.3153771444
 10
546.9146854009
 20
-247.6143440819
 10
543.5040046545
 20
-252.8107643756
 10
539.9669825383
 20
-257.8933837363
 10
536.3112794546
 20
-262.8511943423
 10
532.5448128422
 20
-267.6734586798
 10
528.675740029
 20
-272.349732798
 10
524.7124405653
 20
-276.8698889285
 10
520.6634980752
 20
-281.2241374196
 10
516.5376816664
 20
-285.4030479388
 10
512.3439269386
 20
-289.3975698963
 10
508.0913166307
 20
-293.1990520471
 10
503.7890609497
 20
-296.7992612274
 10
499.4464776232
 20
-300.1904001857
 10
495.0729717199
 20
-303.3651244702
 10
490.6780152797
 20
-306.3165583351
 10
486.2711267994
 20
-309.0383096318
 10
481.8618506184
 20
-311.5244836531
 10
477.4597362468
 20
-313.7696958996
 10
473.0743176843
 20
-315.7690837416
 10
468.7150927708
 20
-317.5183169502
 10
464.3915026169
 20
-319.0136070759
 10
460.112911156
 20
-320.2517156532
 10
455.8885848646
 20
-321.2299612145
 10
451.7276726926
 20
-321.9462250979
 10
447.6391862494
 20
-322.3989560353
 10
443.6319802861
 20
-322.5871735122
 10
439.7147335186
 20
-322.5104698916
 10
435.8959298311
 20
-322.1690112963
 10
432.1838399019
 20
-321.5635372497
 10
428.5865032913
 20
-320.6953590738
 10
425.1117110294
 20
-319.5663570491
 10
421.7669887424
 20
-318.1789763426
 10
418.559580354
 20
-316.536221712
 10
415.4964323965
 20
-314.6416509981
 10
412.5841789664
 20
-312.499367419
 10
409.8291273561
 20
-310.114010684
 10
407.2372443938
 20
-307.4907469447
 10
404.814143521
 20
-304.6352576061
 10
402.5650726345
 20
-301.5537270223
 10
400.4949027211
 20
-298.2528291024
 10
398.6081173078
 20
-294.7397128562
 10
396.9088027517
 20
-291.0219869112
 10
395.4006393897
 20
-287.107703034
 10
394.0868935678
 20
-283.0053386918
 10
392.970410567
 20
-278.7237786923
 10
392.0536084407
 20
-274.272295941
 10
391.3384727783
 20
-269.6605313584
 10
390.8265524044
 20
-264.8984729995
 10
390.5708915448
 20
-261.1224865133
  0
ENDSEC
  0
SECTION
  2
OBJECTS
  0
DICTIONARY
  5
C
330
0
100
AcDbDictionary
281
     1
  3
ACAD_GROUP
350
D
  3
ACAD_LAYOUT
350
1A
  3
ACAD_MLINESTYLE
350
17
  3
ACAD_PLOTSETTINGS
350
19
  3
ACAD_PLOTSTYLENAME
350
E
  3
ACAD_SCALELIST
350
47
  0
DICTIONARY
  5
D
102
{ACAD_REACTORS
330
C
102
}
330
C
100
AcDbDictionary
281
     1
  0
DICTIONARY
  5
1A
102
{ACAD_REACTORS
330
C
102
}
330
C
100
AcDbDictionary
281
     1
  3
Layout1
350
1E
  3
Layout2
350
26
  3
Model
350
22
  0
DICTIONARY
  5
17
102
{ACAD_REACTORS
330
C
102
}
330
C
100
AcDbDictionary
281
     1
  3
Standard
350
18
  0
DICTIONARY
  5
19
102
{ACAD_REACTORS
330
C
102
}
330
C
100
AcDbDictionary
281
     1
  0
ACDBDICTIONARYWDFLT
  5
E
102
{ACAD_REACTORS
330
C
102
}
330
C
100
AcDbDictionary
281
     1
  3
Normal
350
F
100
AcDbDictionaryWithDefault
340
F
  0
DICTIONARY
  5
47
102
{ACAD_REACTORS
330
C
102
}
330
C
100
AcDbDictionary
281
     1
  3
A0
350
48
  3
A1
350
49
  3
A2
350
4A
  3
A3
350
4B
  3
A4
350
4C
  3
A5
350
4D
  3
A6
350
4E
  3
A7
350
4F
  3
A8
350
50
  3
A9
350
51
  3
B0
350
52
  3
B1
350
53
  3
B2
350
54
  3
B3
350
55
  3
B4
350
56
  3
B5
350
57
  3
B6
350
58
  3
B7
350
59
  3
B8
350
5A
  3
B9
350
5B
  3
C0
350
5C
  3
C1
350
5D
  3
C2
350
5E
  3
C3
350
5F
  3
C4
350
60
  3
C5
350
61
  3
C6
350
62
  3
C7
350
63
  3
C8
350
64
  3
C9
350
65
  3
D0
350
66
  3
D1
350
67
  3
D2
350
68
  0
LAYOUT
  5
1E
102
{ACAD_REACTORS
330
1A
102
}
330
1A
100
AcDbPlotSettings
  1

  2
none_device
  4

  6

 40
0.0
 41
0.0
 42
0.0
 43
0.0
 44
0.0
 45
0.0
 46
0.0
 47
0.0
 48
0.0
 49
0.0
140
0.0
141
0.0
142
1.0
143
1.0
 70
   688
 72
     1
 73
     0
 74
     5
  7

 75
    16
147
1.0
148
0.0
149
0.0
100
AcDbLayout
  1
Layout1
 70
     1
 71
     1
 10
0.0
 20
0.0
 11
420.0
 21
297.0
 12
0.0
 22
0.0
 32
0.0
 14
1.0000000000E+20
 24
1.0000000000E+20
 34
1.0000000000E+20
 15
-1.0000000000E+20
 25
-1.0000000000E+20
 35
-1.0000000000E+20
146
0.0
 13
0.0
 23
0.0
 33
0.0
 16
1.0
 26
0.0
 36
0.0
 17
0.0
 27
1.0
 37
0.0
 76
     0
330
1B
  0
LAYOUT
  5
26
102
{ACAD_REACTORS
330
1A
102
}
330
1A
100
AcDbPlotSettings
  1

  2
none_device
  4

  6

 40
0.0
 41
0.0
 42
0.0
 43
0.0
 44
0.0
 45
0.0
 46
0.0
 47
0.0
 48
0.0
 49
0.0
140
0.0
141
0.0
142
1.0
143
1.0
 70
   688
 72
     1
 73
     0
 74
     5
  7

 75
    16
147
1.0
148
0.0
149
0.0
100
AcDbLayout
  1
Layout2
 70
     1
 71
     2
 10
0.0
 20
0.0
 11
0.0
 21
0.0
 12
0.0
 22
0.0
 32
0.0
 14
0.0
 24
0.0
 34
0.0
 15
0.0
 25
0.0
 35
0.0
146
0.0
 13
0.0
 23
0.0
 33
0.0
 16
1.0
 26
0.0
 36
0.0
 17
0.0
 27
1.0
 37
0.0
 76
     0
330
23
  0
LAYOUT
  5
22
102
{ACAD_REACTORS
330
1A
102
}
330
1A
100
AcDbPlotSettings
  1

  2
none_device
  4
Letter_(8.50_x_11.00_Inches)
  6

 40
6.35
 41
6.35
 42
6.35000508
 43
6.35000508
 44
215.9
 45
279.4
 46
0.0
 47
0.0
 48
0.0
 49
0.0
140
0.0
141
0.0
142
1.0
143
1.0
 70
  1712
 72
     1
 73
     0
 74
     0
  7

 75
     0
147
1.0
148
0.0
149
0.0
100
AcDbLayout
  1
Model
 70
     1
 71
     0
 10
0.0
 20
0.0
 11
279.4
 21
215.9
 12
0.0
 22
0.0
 32
0.0
 14
0.0
 24
0.0
 34
0.0
 15
279.4
 25
215.9
 35
0.0
146
0.0
 13
0.0
 23
0.0
 33
0.0
 16
1.0
 26
0.0
 36
0.0
 17
0.0
 27
1.0
 37
0.0
 76
     0
330
1F
331
29
  0
MLINESTYLE
  5
18
102
{ACAD_REACTORS
330
17
102
}
330
17
100
AcDbMlineStyle
  2
Standard
 70
     0
  3

 62
   256
 51
90.0
 52
90.0
 71
     2
 49
0.5
 62
   256
  6
BYLAYER
 49
-0.5
 62
   256
  6
BYLAYER
  0
ACDBPLACEHOLDER
  5
F
102
{ACAD_REACTORS
330
E
102
}
330
E
  0
SCALE
  5
48
102
{ACAD_REACTORS
330
47
102
}
330
47
100
AcDbScale
 70
     0
300
1:1
140
1.0
141
1.0
290
     1
  0
SCALE
  5
49
102
{ACAD_REACTORS
330
47
102
}
330
47
100
AcDbScale
 70
     0
300
1:2
140
1.0
141
2.0
290
     0
  0
SCALE
  5
4A
102
{ACAD_REACTORS
330
47
102
}
330
47
100
AcDbScale
 70
     0
300
1:4
140
1.0
141
4.0
290
     0
  0
SCALE
  5
4B
102
{ACAD_REACTORS
330
47
102
}
330
47
100
AcDbScale
 70
     0
300
1:5
140
1.0
141
5.0
290
     0
  0
SCALE
  5
4C
102
{ACAD_REACTORS
330
47
102
}
330
47
100
AcDbScale
 70
     0
300
1:8
140
1.0
141
8.0
290
     0
  0
SCALE
  5
4D
102
{ACAD_REACTORS
330
47
102
}
330
47
100
AcDbScale
 70
     0
300
1:10
140
1.0
141
10.0
290
     0
  0
SCALE
  5
4E
102
{ACAD_REACTORS
330
47
102
}
330
47
100
AcDbScale
 70
     0
300
1:16
140
1.0
141
16.0
290
     0
  0
SCALE
  5
4F
102
{ACAD_REACTORS
330
47
102
}
330
47
100
AcDbScale
 70
     0
300
1:20
140
1.0
141
20.0
290
     0
  0
SCALE
  5
50
102
{ACAD_REACTORS
330
47
102
}
330
47
100
AcDbScale
 70
     0
300
1:30
140
1.0
141
30.0
290
     0
  0
SCALE
  5
51
102
{ACAD_REACTORS
330
47
102
}
330
47
100
AcDbScale
 70
     0
300
1:40
140
1.0
141
40.0
290
     0
  0
SCALE
  5
52
102
{ACAD_REACTORS
330
47
102
}
330
47
100
AcDbScale
 70
     0
300
1:50
140
1.0
141
50.0
290
     0
  0
SCALE
  5
53
102
{ACAD_REACTORS
330
47
102
}
330
47
100
AcDbScale
 70
     0
300
1:100
140
1.0
141
100.0
290
     0
  0
SCALE
  5
54
102
{ACAD_REACTORS
330
47
102
}
330
47
100
AcDbScale
 70
     0
300
2:1
140
2.0
141
1.0
290
     0
  0
SCALE
  5
55
102
{ACAD_REACTORS
330
47
102
}
330
47
100
AcDbScale
 70
     0
300
4:1
140
4.0
141
1.0
290
     0
  0
SCALE
  5
56
102
{ACAD_REACTORS
330
47
102
}
330
47
100
AcDbScale
 70
     0
300
8:1
140
8.0
141
1.0
290
     0
  0
SCALE
  5
57
102
{ACAD_REACTORS
330
47
102
}
330
47
100
AcDbScale
 70
     0
300
10:1
140
10.0
141
1.0
290
     0
  0
SCALE
  5
58
102
{ACAD_REACTORS
330
47
102
}
330
47
100
AcDbScale
 70
     0
300
100:1
140
100.0
141
1.0
290
     0
  0
SCALE
  5
59
102
{ACAD_REACTORS
330
47
102
}
330
47
100
AcDbScale
 70
     0
300
1/128" = 1'-0"
140
0.0078125
141
12.0
290
     0
  0
SCALE
  5
5A
102
{ACAD_REACTORS
330
47
102
}
330
47
100
AcDbScale
 70
     0
300
1/64" = 1'-0"
140
0.015625
141
12.0
290
     0
  0
SCALE
  5
5B
102
{ACAD_REACTORS
330
47
102
}
330
47
100
AcDbScale
 70
     0
300
1/32" = 1'-0"
140
0.03125
141
12.0
290
     0
  0
SCALE
  5
5C
102
{ACAD_REACTORS
330
47
102
}
330
47
100
AcDbScale
 70
     0
300
1/16" = 1'-0"
140
0.0625
141
12.0
290
     0
  0
SCALE
  5
5D
102
{ACAD_REACTORS
330
47
102
}
330
47
100
AcDbScale
 70
     0
300
3/32" = 1'-0"
140
0.09375
141
12.0
290
     0
  0
SCALE
  5
5E
102
{ACAD_REACTORS
330
47
102
}
330
47
100
AcDbScale
 70
     0
300
1/8" = 1'-0"
140
0.125
141
12.0
290
     0
  0
SCALE
  5
5F
102
{ACAD_REACTORS
330
47
102
}
330
47
100
AcDbScale
 70
     0
300
3/16" = 1'-0"
140
0.1875
141
12.0
290
     0
  0
SCALE
  5
60
102
{ACAD_REACTORS
330
47
102
}
330
47
100
AcDbScale
 70
     0
300
1/4" = 1'-0"
140
0.25
141
12.0
290
     0
  0
SCALE
  5
61
102
{ACAD_REACTORS
330
47
102
}
330
47
100
AcDbScale
 70
     0
300
3/8" = 1'-0"
140
0.375
141
12.0
290
     0
  0
SCALE
  5
62
102
{ACAD_REACTORS
330
47
102
}
330
47
100
AcDbScale
 70
     0
300
1/2" = 1'-0"
140
0.5
141
12.0
290
     0
  0
SCALE
  5
63
102
{ACAD_REACTORS
330
47
102
}
330
47
100
AcDbScale
 70
     0
300
3/4" = 1'-0"
140
0.75
141
12.0
290
     0
  0
SCALE
  5
64
102
{ACAD_REACTORS
330
47
102
}
330
47
100
AcDbScale
 70
     0
300
1" = 1'-0"
140
1.0
141
12.0
290
     0
  0
SCALE
  5
65
102
{ACAD_REACTORS
330
47
102
}
330
47
100
AcDbScale
 70
     0
300
1-1/2" = 1'-0"
140
1.5
141
12.0
290
     0
  0
SCALE
  5
66
102
{ACAD_REACTORS
330
47
102
}
330
47
100
AcDbScale
 70
     0
300
3" = 1'-0"
140
3.0
141
12.0
290
     0
  0
SCALE
  5
67
102
{ACAD_REACTORS
330
47
102
}
330
47
100
AcDbScale
 70
     0
300
6" = 1'-0"
140
6.0
141
12.0
290
     0
  0
SCALE
  5
68
102
{ACAD_REACTORS
330
47
102
}
330
47
100
AcDbScale
 70
     0
300
1'-0" = 1'-0"
140
12.0
141
12.0
290
     0
  0
ENDSEC
  0
EOF
